Blur - Coping (var.4) Gitarrenakkorde kostenlos herutnerladen oder online abspielen

Gitarrenakkorde für Coping (var.4) von Blur kostenlos herutnerladen oder online abspielen: Datei .txt, 2.93 kb hat 118 Aufrufe und 0 Downloads.

Download gitarrenakkorde "Coping (var.4)" (Blur)

Blur Bandname
Coping Songname
Gitarrenakkorde Registerkarten-Typ
2.93 kb Dateigröße
.TXT Dateityp
118 Aufrufe
0 Downloads
 
Bist du ein Roboter?

Coping (var.4) gitarrenakkorde lesen onder online abpsielen

                    Date: Thu, 23 Nov 2000 14:03:06 -0500
From: AAuuddee@aol.com
Subject: b/blur/coping.crd

COPING
BLUR
FROM THE ALBUM MODERN LIFE IS RUBBISH
1993
-------------------------------------
Tabbed by AAuuddee@aol.com

NOTE: the chords can be slightly different from the booklet
but that's because I've simplified a bit...especially in=20
the chorus but that actually doesn't matter!!


INTRO:

Acoustic guitar:

  B           D    A
--7--7--7--7--10---5--
--7--7--7--7--10---5--
--8--8--8--8--11---6--repeat
--9--9--9--9--12---7--
--9--9--9--9--12---7--
--7--7--7--7--10---5--

Electric guitar:

  B5          D5  A5
---------------------
---------------------
---------------------repeat
--9--9--9--9--12--7--
--9--9--9--9--12--7--
--7--7--7--7--10--5--


VERSE1:

  B5          D5  A5
---------------------
---------------------
---------------------repeat
--9--9--9--9--12--7--
--9--9--9--9--12--7--
--7--7--7--7--10--5--


BRIDGE:

  D5   C#m  B5
-------9------
-------9------
-------9------
--12---11---9--repeat
--12---11---9--
--10---9----7--


CHORUS:

  E5  B5  D5  B5 F#5  B5 F#5  B5
---------------------------------
---------------------------------
--1---4---7---4-------4-------4--repeat
--2---4---7---4---4---4---4---4--
--2---2---5---2---4---2---4---2--
------------------2-------2------


VERSE2: played by acoustic guitar at the beginning

  B5          D5  A5
---------------------
---------------------
---------------------repeat
--9--9--9--9--12--7--
--9--9--9--9--12--7--
--7--7--7--7--10--5--


BRIDGE


CHORUS:

  E5  B5  D5  B5 F#5  B5 F#5  B5
---------------------------------
---------------------------------
--1---4---7---4-------4-------4--
--2---4---7---4---4---4---4---4--repeat
--2---2---5---2---4---2---4---2--
------------------2-------2------

Then when the keyboards start, play this:

  E5  B5  D5  B5    F#5     B5     F#5    B5
-----------------------------------------------
-----------------------------------------------
--1---4---7---4--3b4----3b4--4--3b4---3b4--4---repeat
--2---4---7---4------4-------4------4------4---
--2---2---5---2------4-------2------4------2---
---------------------2--------------2----------


VERSE RIFF with acoustic guitar


BRIDGE x2


CHORUS:

  E5  B5  D5  B5    F#5     B5     F#5    B5
-----------------------------------------------
-----------------------------------------------
--1---4---7---4--3b4----3b4--4--3b4---3b4--4---repeat
--2---4---7---4------4-------4------4------4---
--2---2---5---2------4-------2------4------2---
---------------------2--------------2----------

until the end...                    

Kommentare für gitarrenakkorde — Coping (var.4) (Blur)

Andere Coping (var.4) von Blur Registerkarten:

Zuletzt angesehene Blur Registerkarten: